  0
SECTION
  2
HEADER
  9
$ACADVER
  1
AC1015
  9
$ACADMAINTVER
 70
     6
  9
$DWGCODEPAGE
  3
ANSI_1254
  9
$INSBASE
 10
0.0
 20
0.0
 30
0.0
  9
$EXTMIN
 10
0.0
 20
0.0
 30
0.0
  9
$EXTMAX
 10
279.4
 20
215.9
 30
0.0
  9
$LIMMIN
 10
0.0
 20
0.0
  9
$LIMMAX
 10
279.4
 20
215.9
  9
$ORTHOMODE
 70
     0
  9
$REGENMODE
 70
     1
  9
$FILLMODE
 70
     1
  9
$QTEXTMODE
 70
     0
  9
$MIRRTEXT
 70
     1
  9
$LTSCALE
 40
1.0
  9
$ATTMODE
 70
     1
  9
$TEXTSIZE
 40
3.5
  9
$TRACEWID
 40
1.0
  9
$TEXTSTYLE
  7
Standard
  9
$CLAYER
  8
0
  9
$CELTYPE
  6
ByLayer
  9
$CECOLOR
 62
   256
  9
$CELTSCALE
 40
1.0
  9
$DISPSILH
 70
     0
  9
$DIMSCALE
 40
1.0
  9
$DIMASZ
 40
3.5
  9
$DIMEXO
 40
1.0
  9
$DIMDLI
 40
3.75
  9
$DIMRND
 40
0.0
  9
$DIMDLE
 40
0.0
  9
$DIMEXE
 40
1.0
  9
$DIMTP
 40
0.0
  9
$DIMTM
 40
0.0
  9
$DIMTXT
 40
3.5
  9
$DIMCEN
 40
2.5
  9
$DIMTSZ
 40
0.0
  9
$DIMTOL
 70
     0
  9
$DIMLIM
 70
     0
  9
$DIMTIH
 70
     1
  9
$DIMTOH
 70
     1
  9
$DIMSE1
 70
     0
  9
$DIMSE2
 70
     0
  9
$DIMTAD
 70
     1
  9
$DIMZIN
 70
     0
  9
$DIMBLK
  1

  9
$DIMASO
 70
     1
  9
$DIMSHO
 70
     1
  9
$DIMPOST
  1

  9
$DIMAPOST
  1

  9
$DIMALT
 70
     0
  9
$DIMALTD
 70
     3
  9
$DIMALTF
 40
0.0393700787
  9
$DIMLFAC
 40
1.0
  9
$DIMTOFL
 70
     1
  9
$DIMTVP
 40
0.0
  9
$DIMTIX
 70
     0
  9
$DIMSOXD
 70
     0
  9
$DIMSAH
 70
     0
  9
$DIMBLK1
  1

  9
$DIMBLK2
  1

  9
$DIMSTYLE
  2
ISO-25
  9
$DIMCLRD
 70
     0
  9
$DIMCLRE
 70
     0
  9
$DIMCLRT
 70
     0
  9
$DIMTFAC
 40
1.0
  9
$DIMGAP
 40
1.524
  9
$DIMJUST
 70
     0
  9
$DIMSD1
 70
     0
  9
$DIMSD2
 70
     0
  9
$DIMTOLJ
 70
     0
  9
$DIMTZIN
 70
     0
  9
$DIMALTZ
 70
     0
  9
$DIMALTTZ
 70
     0
  9
$DIMUPT
 70
     0
  9
$DIMDEC
 70
     2
  9
$DIMTDEC
 70
     2
  9
$DIMALTU
 70
     2
  9
$DIMALTTD
 70
     3
  9
$DIMTXSTY
  7
Standard
  9
$DIMAUNIT
 70
     0
  9
$DIMADEC
 70
     2
  9
$DIMALTRND
 40
0.0
  9
$DIMAZIN
 70
     0
  9
$DIMDSEP
 70
    44
  9
$DIMATFIT
 70
     3
  9
$DIMFRAC
 70
     0
  9
$DIMLDRBLK
  1

  9
$DIMLUNIT
 70
     2
  9
$DIMLWD
 70
    -2
  9
$DIMLWE
 70
    -2
  9
$DIMTMOVE
 70
     0
  9
$LUNITS
 70
     2
  9
$LUPREC
 70
     2
  9
$SKETCHINC
 40
1.0
  9
$FILLETRAD
 40
10.0
  9
$AUNITS
 70
     0
  9
$AUPREC
 70
     2
  9
$MENU
  1
.
  9
$ELEVATION
 40
0.0
  9
$PELEVATION
 40
0.0
  9
$THICKNESS
 40
0.0
  9
$LIMCHECK
 70
     0
  9
$CHAMFERA
 40
0.0
  9
$CHAMFERB
 40
0.0
  9
$CHAMFERC
 40
0.0
  9
$CHAMFERD
 40
0.0
  9
$SKPOLY
 70
     0
  9
$TDCREATE
 40
2458985.705525775
  9
$TDUCREATE
 40
2458985.580525775
  9
$TDUPDATE
 40
2458985.7055261
  9
$TDUUPDATE
 40
2458985.5805261
  9
$TDINDWG
 40
0.0000000116
  9
$TDUSRTIMER
 40
0.0000000116
  9
$USRTIMER
 70
     1
  9
$ANGBASE
 50
0.0
  9
$ANGDIR
 70
     0
  9
$PDMODE
 70
     0
  9
$PDSIZE
 40
-1.0
  9
$PLINEWID
 40
0.0
  9
$SPLFRAME
 70
     0
  9
$SPLINETYPE
 70
     6
  9
$SPLINESEGS
 70
     8
  9
$HANDSEED
  5
ED
  9
$SURFTAB1
 70
     6
  9
$SURFTAB2
 70
     6
  9
$SURFTYPE
 70
     6
  9
$SURFU
 70
     6
  9
$SURFV
 70
     6
  9
$UCSBASE
  2

  9
$UCSNAME
  2

  9
$UCSORG
 10
0.0
 20
0.0
 30
0.0
  9
$UCSXDIR
 10
1.0
 20
0.0
 30
0.0
  9
$UCSYDIR
 10
0.0
 20
1.0
 30
0.0
  9
$UCSORTHOREF
  2

  9
$UCSORTHOVIEW
 70
     0
  9
$UCSORGTOP
 10
0.0
 20
0.0
 30
0.0
  9
$UCSORGBOTTOM
 10
0.0
 20
0.0
 30
0.0
  9
$UCSORGLEFT
 10
0.0
 20
0.0
 30
0.0
  9
$UCSORGRIGHT
 10
0.0
 20
0.0
 30
0.0
  9
$UCSORGFRONT
 10
0.0
 20
0.0
 30
0.0
  9
$UCSORGBACK
 10
0.0
 20
0.0
 30
0.0
  9
$PUCSBASE
  2

  9
$PUCSNAME
  2

  9
$PUCSORG
 10
0.0
 20
0.0
 30
0.0
  9
$PUCSXDIR
 10
1.0
 20
0.0
 30
0.0
  9
$PUCSYDIR
 10
0.0
 20
1.0
 30
0.0
  9
$PUCSORTHOREF
  2

  9
$PUCSORTHOVIEW
 70
     0
  9
$PUCSORGTOP
 10
0.0
 20
0.0
 30
0.0
  9
$PUCSORGBOTTOM
 10
0.0
 20
0.0
 30
0.0
  9
$PUCSORGLEFT
 10
0.0
 20
0.0
 30
0.0
  9
$PUCSORGRIGHT
 10
0.0
 20
0.0
 30
0.0
  9
$PUCSORGFRONT
 10
0.0
 20
0.0
 30
0.0
  9
$PUCSORGBACK
 10
0.0
 20
0.0
 30
0.0
  9
$USERI1
 70
     0
  9
$USERI2
 70
     0
  9
$USERI3
 70
     0
  9
$USERI4
 70
     0
  9
$USERI5
 70
     0
  9
$USERR1
 40
0.0
  9
$USERR2
 40
0.0
  9
$USERR3
 40
0.0
  9
$USERR4
 40
0.0
  9
$USERR5
 40
0.0
  9
$WORLDVIEW
 70
     1
  9
$SHADEDGE
 70
     3
  9
$SHADEDIF
 70
    70
  9
$TILEMODE
 70
     1
  9
$MAXACTVP
 70
    64
  9
$PINSBASE
 10
0.0
 20
0.0
 30
0.0
  9
$PLIMCHECK
 70
     0
  9
$PEXTMIN
 10
1.0000000000E+20
 20
1.0000000000E+20
 30
1.0000000000E+20
  9
$PEXTMAX
 10
-1.0000000000E+20
 20
-1.0000000000E+20
 30
-1.0000000000E+20
  9
$PLIMMIN
 10
0.0
 20
0.0
  9
$PLIMMAX
 10
420.0
 20
297.0
  9
$UNITMODE
 70
     0
  9
$VISRETAIN
 70
     1
  9
$PLINEGEN
 70
     0
  9
$PSLTSCALE
 70
     1
  9
$TREEDEPTH
 70
  3020
  9
$CMLSTYLE
  2
Standard
  9
$CMLJUST
 70
     0
  9
$CMLSCALE
 40
20.0
  9
$PROXYGRAPHICS
 70
     1
  9
$MEASUREMENT
 70
     1
  9
$CELWEIGHT
370
    -1
  9
$ENDCAPS
280
     0
  9
$JOINSTYLE
280
     0
  9
$LWDISPLAY
290
     1
  9
$INSUNITS
 70
     4
  9
$HYPERLINKBASE
  1

  9
$STYLESHEET
  1

  9
$XEDIT
290
     1
  9
$CEPSNTYPE
380
     0
  9
$PSTYLEMODE
290
     1
  9
$FINGERPRINTGUID
  2
{9b91d3f0-e319-4145-bf05-7ae46fcd833a}
  9
$VERSIONGUID
  2
{FAEB1C32-E019-11D5-929B-00C0DF256EC4}
  9
$EXTNAMES
290
     1
  9
$PSVPSCALE
 40
0.0
  9
$OLESTARTUP
290
     0
  0
ENDSEC
  0
SECTION
  2
CLASSES
  0
CLASS
  1
ACDBDICTIONARYWDFLT
  2
AcDbDictionaryWithDefault
  3
ObjectDBX Classes
 90
        0
280
     0
281
     0
  0
CLASS
  1
VISUALSTYLE
  2
AcDbVisualStyle
  3
ObjectDBX Classes
 90
     4095
280
     0
281
     0
  0
CLASS
  1
MATERIAL
  2
AcDbMaterial
  3
ObjectDBX Classes
 90
     1153
280
     0
281
     0
  0
CLASS
  1
SCALE
  2
AcDbScale
  3
ObjectDBX Classes
 90
     1153
280
     0
281
     0
  0
CLASS
  1
TABLESTYLE
  2
AcDbTableStyle
  3
ObjectDBX Classes
 90
     4095
280
     0
281
     0
  0
CLASS
  1
MLEADERSTYLE
  2
AcDbMLeaderStyle
  3
ACDB_MLEADERSTYLE_CLASS
 90
     4095
280
     0
281
     0
  0
CLASS
  1
SUN
  2
AcDbSun
  3
SCENEOE
 90
     1153
280
     0
281
     0
  0
CLASS
  1
ACDBPLACEHOLDER
  2
AcDbPlaceHolder
  3
ObjectDBX Classes
 90
        0
280
     0
281
     0
  0
CLASS
  1
LAYOUT
  2
AcDbLayout
  3
ObjectDBX Classes
 90
        0
280
     0
281
     0
  0
ENDSEC
  0
SECTION
  2
TABLES
  0
TABLE
  2
VPORT
  5
8
330
0
100
AcDbSymbolTable
 70
     1
  0
VPORT
  5
29
330
8
100
AcDbSymbolTableRecord
100
AcDbViewportTableRecord
  2
*Active
 70
     0
 10
0.0
 20
0.0
 11
1.0
 21
1.0
 12
139.7
 22
107.95
 13
0.0
 23
0.0
 14
10.0
 24
10.0
 15
10.0
 25
10.0
 16
0.0
 26
0.0
 36
1.0
 17
0.0
 27
0.0
 37
0.0
 40
215.9
 41
1.2941176471
 42
50.0
 43
0.0
 44
0.0
 50
0.0
 51
0.0
 71
     0
 72
  2000
 73
     1
 74
     3
 75
     0
 76
     0
 77
     0
 78
     0
281
     0
 65
     1
110
0.0
120
0.0
130
0.0
111
1.0
121
0.0
131
0.0
112
0.0
122
1.0
132
0.0
 79
     0
146
0.0
  0
ENDTAB
  0
TABLE
  2
LTYPE
  5
5
330
0
100
AcDbSymbolTable
 70
     6
  0
LTYPE
  5
14
330
5
100
AcDbSymbolTableRecord
100
AcDbLinetypeTableRecord
  2
ByBlock
 70
     0
  3

 72
    65
 73
     0
 40
0.0
  0
LTYPE
  5
15
330
5
100
AcDbSymbolTableRecord
100
AcDbLinetypeTableRecord
  2
ByLayer
 70
     0
  3

 72
    65
 73
     0
 40
0.0
  0
LTYPE
  5
16
330
5
100
AcDbSymbolTableRecord
100
AcDbLinetypeTableRecord
  2
Continuous
 70
     0
  3
Solid line
 72
    65
 73
     0
 40
0.0
  0
LTYPE
  5
6E
330
5
100
AcDbSymbolTableRecord
100
AcDbLinetypeTableRecord
  2
HIDDEN
 70
     0
  3
Hidden __ __ __ __ __ __ __ __ __ __ __ __ __ __
 72
    65
 73
     2
 40
1.905
 49
1.27
 74
     0
 49
-0.635
 74
     0
  0
LTYPE
  5
6F
330
5
100
AcDbSymbolTableRecord
100
AcDbLinetypeTableRecord
  2
PHANTOM
 70
     0
  3
Phantom ______  __  __  ______  __  __  ______
 72
    65
 73
     6
 40
12.7
 49
6.35
 74
     0
 49
-1.27
 74
     0
 49
1.27
 74
     0
 49
-1.27
 74
     0
 49
1.27
 74
     0
 49
-1.27
 74
     0
  0
LTYPE
  5
70
330
5
100
AcDbSymbolTableRecord
100
AcDbLinetypeTableRecord
  2
CENTER
 70
     0
  3
Center ____ _ ____ _ ____ _ ____ _ ____ _ ____
 72
    65
 73
     4
 40
10.16
 49
6.35
 74
     0
 49
-1.27
 74
     0
 49
1.27
 74
     0
 49
-1.27
 74
     0
  0
LTYPE
  5
71
330
5
100
AcDbSymbolTableRecord
100
AcDbLinetypeTableRecord
  2
CENTERX2
 70
     0
  3
Center (2x) ________  __  ________  __  _____
 72
    65
 73
     4
 40
20.32
 49
12.7
 74
     0
 49
-2.54
 74
     0
 49
2.54
 74
     0
 49
-2.54
 74
     0
  0
LTYPE
  5
72
330
5
100
AcDbSymbolTableRecord
100
AcDbLinetypeTableRecord
  2
DOT2
 70
     0
  3
Dot (.5x) ........................................
 72
    65
 73
     2
 40
0.635
 49
0.0
 74
     0
 49
-0.635
 74
     0
  0
ENDTAB
  0
TABLE
  2
LAYER
  5
2
330
0
100
AcDbSymbolTable
 70
    17
  0
LAYER
  5
10
330
2
100
AcDbSymbolTableRecord
100
AcDbLayerTableRecord
  2
0
 70
     0
 62
     7
  6
Continuous
370
    -3
390
F
  0
LAYER
  5
73
330
2
100
AcDbSymbolTableRecord
100
AcDbLayerTableRecord
  2
FORMAT
 70
     0
 62
     7
  6
Continuous
370
    -3
390
F
  0
LAYER
  5
74
330
2
100
AcDbSymbolTableRecord
100
AcDbLayerTableRecord
  2
YARDIMCI_GEOMETRI
 70
     0
 62
    -6
  6
Continuous
290
     0
370
    -3
390
F
  0
LAYER
  5
75
330
2
100
AcDbSymbolTableRecord
100
AcDbLayerTableRecord
  2
SAYFA_CERCEVESI
 70
     0
 62
     7
  6
Continuous
370
    25
390
F
  0
LAYER
  5
76
330
2
100
AcDbSymbolTableRecord
100
AcDbLayerTableRecord
  2
ANTET
 70
     0
 62
     7
  6
Continuous
370
    -3
390
F
  0
LAYER
  5
77
330
2
100
AcDbSymbolTableRecord
100
AcDbLayerTableRecord
  2
OLCU
 70
     0
 62
   150
  6
Continuous
370
    -3
390
F
  0
LAYER
  5
78
330
2
100
AcDbSymbolTableRecord
100
AcDbLayerTableRecord
  2
METIN
 70
     0
 62
    96
  6
Continuous
370
    -3
390
F
  0
LAYER
  5
79
330
2
100
AcDbSymbolTableRecord
100
AcDbLayerTableRecord
  2
BALON
 70
     0
 62
     5
  6
Continuous
370
    -3
390
F
  0
LAYER
  5
7A
330
2
100
AcDbSymbolTableRecord
100
AcDbLayerTableRecord
  2
VURGU
 70
     0
 62
     7
  6
Continuous
370
    -3
390
F
  0
LAYER
  5
7B
330
2
100
AcDbSymbolTableRecord
100
AcDbLayerTableRecord
  2
SILIK
 70
     0
 62
     7
  6
Continuous
370
    -3
390
F
  0
LAYER
  5
7C
330
2
100
AcDbSymbolTableRecord
100
AcDbLayerTableRecord
  2
MODEL
 70
     0
 62
     7
  6
Continuous
370
    -3
390
F
  0
LAYER
  5
7D
330
2
100
AcDbSymbolTableRecord
100
AcDbLayerTableRecord
  2
DETAYLANDıRMA
 70
     0
 62
   190
  6
Continuous
370
    -3
390
F
  0
LAYER
  5
7E
330
2
100
AcDbSymbolTableRecord
100
AcDbLayerTableRecord
  2
TOLERANS
 70
     0
 62
   230
  6
Continuous
370
    -3
390
F
  0
LAYER
  5
7F
330
2
100
AcDbSymbolTableRecord
100
AcDbLayerTableRecord
  2
MERKEZ_CIZGILERI
 70
     0
 62
    30
  6
Continuous
370
    -3
390
F
  0
LAYER
  5
80
330
2
100
AcDbSymbolTableRecord
100
AcDbLayerTableRecord
  2
KESIT-DETAY_CIZGILERI
 70
     0
 62
     7
  6
Continuous
370
    -3
390
F
  0
LAYER
  5
81
330
2
100
AcDbSymbolTableRecord
100
AcDbLayerTableRecord
  2
\U+041E\U+0421\U+0415\U+0412\U+042B\U+0415
 70
     0
 62
     7
  6
Continuous
370
    -3
390
F
  0
LAYER
  5
82
330
2
100
AcDbSymbolTableRecord
100
AcDbLayerTableRecord
  2
\U+0412\U+041E\U+0414\U+042F\U+041D\U+042B\U+0415_\U+0417\U+041D\U+0410\U+041A\U+0418
 70
     0
 62
    11
  6
Continuous
370
    -3
390
F
  0
ENDTAB
  0
TABLE
  2
STYLE
  5
3
330
0
100
AcDbSymbolTable
 70
     1
  0
STYLE
  5
11
330
3
100
AcDbSymbolTableRecord
100
AcDbTextStyleTableRecord
  2
Standard
 70
     0
 40
0.0
 41
1.0
 50
0.0
 71
     0
 42
3.5
  3
txt
  4

  0
ENDTAB
  0
TABLE
  2
VIEW
  5
6
330
0
100
AcDbSymbolTable
 70
     0
  0
ENDTAB
  0
TABLE
  2
UCS
  5
7
330
0
100
AcDbSymbolTable
 70
     0
  0
ENDTAB
  0
TABLE
  2
APPID
  5
9
330
0
100
AcDbSymbolTable
 70
     1
  0
APPID
  5
12
330
9
100
AcDbSymbolTableRecord
100
AcDbRegAppTableRecord
  2
ACAD
 70
     0
  0
ENDTAB
  0
TABLE
  2
DIMSTYLE
  5
A
330
0
100
AcDbSymbolTable
 70
     1
100
AcDbDimStyleTable
  0
DIMSTYLE
105
27
330
A
100
AcDbSymbolTableRecord
100
AcDbDimStyleTableRecord
  2
ISO-25
 70
     0
 41
2.5
 42
0.625
 43
3.75
 44
1.25
 73
     0
 74
     0
 77
     1
 78
     8
140
2.5
141
2.5
143
0.0393700787
147
0.625
171
     3
172
     1
178
     0
271
     2
272
     2
274
     3
278
    44
283
     0
284
     8
340
11
  0
ENDTAB
  0
TABLE
  2
BLOCK_RECORD
  5
1
330
0
100
AcDbSymbolTable
 70
     2
  0
BLOCK_RECORD
  5
1F
330
1
100
AcDbSymbolTableRecord
100
AcDbBlockTableRecord
  2
*Model_Space
340
22
  0
BLOCK_RECORD
  5
1B
330
1
100
AcDbSymbolTableRecord
100
AcDbBlockTableRecord
  2
*Paper_Space
340
1E
  0
BLOCK_RECORD
  5
23
330
1
100
AcDbSymbolTableRecord
100
AcDbBlockTableRecord
  2
*Paper_Space0
340
26
  0
BLOCK_RECORD
  5
88
330
1
100
AcDbSymbolTableRecord
100
AcDbBlockTableRecord
  2
SW_CENTERMARKSYMBOL_0
340
0
102
{BLKREFS
331
93
102
}
  0
ENDTAB
  0
ENDSEC
  0
SECTION
  2
BLOCKS
  0
BLOCK
  5
20
330
1F
100
AcDbEntity
  8
0
100
AcDbBlockBegin
  2
*Model_Space
 70
     0
 10
0.0
 20
0.0
 30
0.0
  3
*Model_Space
  1

  0
ENDBLK
  5
21
330
1F
100
AcDbEntity
  8
0
100
AcDbBlockEnd
  0
BLOCK
  5
1C
330
1B
100
AcDbEntity
 67
     1
  8
0
100
AcDbBlockBegin
  2
*Paper_Space
 70
     0
 10
0.0
 20
0.0
 30
0.0
  3
*Paper_Space
  1

  0
ENDBLK
  5
1D
330
1B
100
AcDbEntity
 67
     1
  8
0
100
AcDbBlockEnd
  0
BLOCK
  5
24
330
23
100
AcDbEntity
  8
0
100
AcDbBlockBegin
  2
*Paper_Space0
 70
     0
 10
0.0
 20
0.0
 30
0.0
  3
*Paper_Space0
  1

  0
ENDBLK
  5
25
330
23
100
AcDbEntity
  8
0
100
AcDbBlockEnd
  0
BLOCK
  5
89
330
88
100
AcDbEntity
  8
0
100
AcDbBlockBegin
  2
SW_CENTERMARKSYMBOL_0
 70
     0
 10
0.0
 20
0.0
 30
0.0
  3
SW_CENTERMARKSYMBOL_0
  1

  0
LINE
  5
8B
330
88
100
AcDbEntity
  8
FORMAT
 62
     0
100
AcDbLine
 10
0.0
 20
0.0
 30
0.0
 11
0.0
 21
2.5
 31
0.0
  0
LINE
  5
8C
330
88
100
AcDbEntity
  8
FORMAT
 62
     0
100
AcDbLine
 10
0.0
 20
0.0
 30
0.0
 11
-2.5
 21
0.0
 31
0.0
  0
LINE
  5
8D
330
88
100
AcDbEntity
  8
FORMAT
 62
     0
100
AcDbLine
 10
0.0
 20
0.0
 30
0.0
 11
0.0
 21
-2.5
 31
0.0
  0
LINE
  5
8E
330
88
100
AcDbEntity
  8
FORMAT
 62
     0
100
AcDbLine
 10
0.0
 20
0.0
 30
0.0
 11
2.5
 21
0.0
 31
0.0
  0
LINE
  5
8F
330
88
100
AcDbEntity
  8
FORMAT
 62
     0
100
AcDbLine
 10
0.0
 20
5.0
 30
0.0
 11
0.0
 21
65.0
 31
0.0
  0
LINE
  5
90
330
88
100
AcDbEntity
  8
FORMAT
 62
     0
100
AcDbLine
 10
-5.0
 20
0.0
 30
0.0
 11
-65.0
 21
0.0
 31
0.0
  0
LINE
  5
91
330
88
100
AcDbEntity
  8
FORMAT
 62
     0
100
AcDbLine
 10
0.0
 20
-5.0
 30
0.0
 11
0.0
 21
-65.0
 31
0.0
  0
LINE
  5
92
330
88
100
AcDbEntity
  8
FORMAT
 62
     0
100
AcDbLine
 10
5.0
 20
0.0
 30
0.0
 11
65.0
 21
0.0
 31
0.0
  0
ENDBLK
  5
8A
330
88
100
AcDbEntity
  8
0
100
AcDbBlockEnd
  0
ENDSEC
  0
SECTION
  2
ENTITIES
  0
CIRCLE
  5
83
330
1F
100
AcDbEntity
  8
0
  6
Continuous
 62
     7
370
    25
100
AcDbCircle
 10
136.0804557792
 20
118.8813202377
 30
0.0
 40
62.5
  0
CIRCLE
  5
84
330
1F
100
AcDbEntity
  8
0
  6
Continuous
 62
     7
370
    25
100
AcDbCircle
 10
136.0804557792
 20
118.8813202377
 30
0.0
 40
55.10000000000001
  0
CIRCLE
  5
85
330
1F
100
AcDbEntity
  8
0
  6
Continuous
 62
     7
370
    25
100
AcDbCircle
 10
136.0804557792
 20
118.8813202377
 30
0.0
 40
54.2175380050512
  0
CIRCLE
  5
86
330
1F
100
AcDbEntity
  8
0
  6
Continuous
 62
     7
370
    25
100
AcDbCircle
 10
136.0804557792
 20
118.8813202377
 30
0.0
 40
28.58246199494886
  0
CIRCLE
  5
87
330
1F
100
AcDbEntity
  8
0
  6
Continuous
 62
     7
370
    25
100
AcDbCircle
 10
136.0804557792
 20
118.8813202377
 30
0.0
 40
27.70000000000002
  0
INSERT
  5
93
330
1F
100
AcDbEntity
  8
FORMAT
 62
     7
100
AcDbBlockReference
  2
SW_CENTERMARKSYMBOL_0
 10
136.0804557792
 20
118.8813202377
 30
0.0
  0
ARC
  5
94
330
1F
100
AcDbEntity
  8
0
  6
Continuous
 62
     7
370
    25
100
AcDbCircle
 10
-100.2243661928
 20
179.3813202377
 30
0.0
 40
2.000000000000028
100
AcDbArc
 50
55.4374753511
 51
90.0
  0
ARC
  5
95
330
1F
100
AcDbEntity
  8
0
  6
Continuous
 62
     7
370
    25
100
AcDbCircle
 10
-100.2243661928
 20
58.3813202377
 30
0.0
 40
2.000000000000019
100
AcDbArc
 50
270.0
 51
304.5625246489
  0
LINE
  5
96
330
1F
100
AcDbEntity
  8
0
  6
Continuous
 62
     7
370
    25
100
AcDbLine
 10
-100.2243663002
 20
181.3813202377
 30
0.0
 11
-186.60215091
 21
181.3813202377
 31
0.0
  0
LINE
  5
97
330
1F
100
AcDbEntity
  8
0
  6
Continuous
 62
     7
370
    25
100
AcDbLine
 10
-186.60215091
 20
56.3813202377
 30
0.0
 11
-100.2243663002
 21
56.3813202377
 31
0.0
  0
LINE
  5
98
330
1F
100
AcDbEntity
  8
0
  6
Continuous
 62
     7
370
    25
100
AcDbLine
 10
-99.0897564966
 20
56.7343063947
 30
0.0
 11
-55.1145504046
 21
87.0283372994
 31
0.0
  0
LINE
  5
99
330
1F
100
AcDbEntity
  8
0
  6
Continuous
 62
     7
370
    25
100
AcDbLine
 10
-55.1145504046
 20
150.734303176
 30
0.0
 11
-99.0897564966
 21
181.0283340808
 31
0.0
  0
ARC
  5
9A
330
1F
100
AcDbEntity
  8
0
  6
Continuous
 62
     7
370
    25
100
AcDbCircle
 10
-53.9799398225
 20
152.3813202377
 30
0.0
 40
2.000000000000001
100
AcDbArc
 50
235.4374753511
 51
270.0
  0
ARC
  5
9B
330
1F
100
AcDbEntity
  8
0
  6
Continuous
 62
     7
370
    25
100
AcDbCircle
 10
-53.9799398225
 20
85.3813202377
 30
0.0
 40
2.0
100
AcDbArc
 50
90.0
 51
124.5625246489
  0
LINE
  5
9C
330
1F
100
AcDbEntity
  8
0
  6
Continuous
 62
     7
370
    25
100
AcDbLine
 10
8.3978493881
 20
150.3813207444
 30
0.0
 11
-53.979940601
 21
150.3813207444
 31
0.0
  0
LINE
  5
9D
330
1F
100
AcDbEntity
  8
0
  6
Continuous
 62
     7
370
    25
100
AcDbLine
 10
-53.979940601
 20
87.3813197311
 30
0.0
 11
8.3978493881
 21
87.3813197311
 31
0.0
  0
LINE
  5
9E
330
1F
100
AcDbEntity
  8
0
  6
Continuous
 62
     7
370
    25
100
AcDbLine
 10
-186.60215091
 20
181.3813202377
 30
0.0
 11
-186.60215091
 21
56.3813202377
 31
0.0
  0
LINE
  5
9F
330
1F
100
AcDbEntity
  8
0
  6
Continuous
 62
     7
370
    25
100
AcDbLine
 10
8.3978493881
 20
150.3813207444
 30
0.0
 11
8.3978493881
 21
87.3813197311
 31
0.0
  0
LINE
  5
A0
330
1F
100
AcDbEntity
  8
0
  6
Continuous
 62
     1
370
    25
100
AcDbLine
 10
-99.0897564966
 20
181.0283340808
 30
0.0
 11
-99.0897564966
 21
56.7343063947
 31
0.0
  0
LINE
  5
A1
330
1F
100
AcDbEntity
  8
0
  6
Continuous
 62
     1
370
    25
100
AcDbLine
 10
-100.2243663002
 20
181.3813202377
 30
0.0
 11
-100.2243663002
 21
56.3813202377
 31
0.0
  0
LINE
  5
A2
330
1F
100
AcDbEntity
  8
0
  6
Continuous
 62
     1
370
    25
100
AcDbLine
 10
-55.1145504046
 20
150.734303176
 30
0.0
 11
-55.1145504046
 21
87.0283372994
 31
0.0
  0
LINE
  5
A3
330
1F
100
AcDbEntity
  8
0
  6
Continuous
 62
     1
370
    25
100
AcDbLine
 10
-53.979940601
 20
150.3813207444
 30
0.0
 11
-53.979940601
 21
87.3813197311
 31
0.0
  0
ARC
  5
A4
330
1F
100
AcDbEntity
  8
0
  6
Continuous
 62
     7
370
    25
100
AcDbCircle
 10
196.5804557792
 20
318.2554977974
 30
0.0
 40
2.000000000000028
100
AcDbArc
 50
325.4374753511
 51
0.0
  0
ARC
  5
A5
330
1F
100
AcDbEntity
  8
0
  6
Continuous
 62
     7
370
    25
100
AcDbCircle
 10
75.5804557792
 20
318.2554977974
 30
0.0
 40
2.000000000000014
100
AcDbArc
 50
180.0
 51
214.5625246489
  0
LINE
  5
A6
330
1F
100
AcDbEntity
  8
0
  6
Continuous
 62
     7
370
    25
100
AcDbLine
 10
198.5804557792
 20
318.2554979048
 30
0.0
 11
198.5804557792
 21
404.6332825146
 31
0.0
  0
LINE
  5
A7
330
1F
100
AcDbEntity
  8
0
  6
Continuous
 62
     7
370
    25
100
AcDbLine
 10
73.5804557792
 20
404.6332825146
 30
0.0
 11
73.5804557792
 21
318.2554979048
 31
0.0
  0
LINE
  5
A8
330
1F
100
AcDbEntity
  8
0
  6
Continuous
 62
     7
370
    25
100
AcDbLine
 10
73.9334419361
 20
317.1208881012
 30
0.0
 11
104.2274728409
 21
273.1456820092
 31
0.0
  0
LINE
  5
A9
330
1F
100
AcDbEntity
  8
0
  6
Continuous
 62
     7
370
    25
100
AcDbLine
 10
167.9334387175
 20
273.1456820092
 30
0.0
 11
198.2274696222
 21
317.1208881012
 31
0.0
  0
ARC
  5
AA
330
1F
100
AcDbEntity
  8
0
  6
Continuous
 62
     7
370
    25
100
AcDbCircle
 10
169.5804557792
 20
272.0110714271
 30
0.0
 40
2.000000000000017
100
AcDbArc
 50
145.4374753511
 51
180.0
  0
ARC
  5
AB
330
1F
100
AcDbEntity
  8
0
  6
Continuous
 62
     7
370
    25
100
AcDbCircle
 10
102.5804557792
 20
272.0110714271
 30
0.0
 40
2.000000000000006
100
AcDbArc
 50
0.0
 51
34.5625246489
  0
LINE
  5
AC
330
1F
100
AcDbEntity
  8
0
  6
Continuous
 62
     7
370
    25
100
AcDbLine
 10
167.5804562858
 20
209.6332822165
 30
0.0
 11
167.5804562858
 21
272.0110722056
 31
0.0
  0
LINE
  5
AD
330
1F
100
AcDbEntity
  8
0
  6
Continuous
 62
     7
370
    25
100
AcDbLine
 10
104.5804552725
 20
272.0110722056
 30
0.0
 11
104.5804552725
 21
209.6332822165
 31
0.0
  0
LINE
  5
AE
330
1F
100
AcDbEntity
  8
0
  6
Continuous
 62
     7
370
    25
100
AcDbLine
 10
198.5804557792
 20
404.6332825146
 30
0.0
 11
73.5804557792
 21
404.6332825146
 31
0.0
  0
LINE
  5
AF
330
1F
100
AcDbEntity
  8
0
  6
Continuous
 62
     7
370
    25
100
AcDbLine
 10
167.5804562858
 20
209.6332822165
 30
0.0
 11
104.5804552725
 21
209.6332822165
 31
0.0
  0
LINE
  5
B0
330
1F
100
AcDbEntity
  8
0
  6
Continuous
 62
     1
370
    25
100
AcDbLine
 10
198.2274696222
 20
317.1208881012
 30
0.0
 11
73.9334419361
 21
317.1208881012
 31
0.0
  0
LINE
  5
B1
330
1F
100
AcDbEntity
  8
0
  6
Continuous
 62
     1
370
    25
100
AcDbLine
 10
198.5804557792
 20
318.2554979048
 30
0.0
 11
73.5804557792
 21
318.2554979048
 31
0.0
  0
LINE
  5
B2
330
1F
100
AcDbEntity
  8
0
  6
Continuous
 62
     1
370
    25
100
AcDbLine
 10
167.9334387175
 20
273.1456820092
 30
0.0
 11
104.2274728409
 21
273.1456820092
 31
0.0
  0
LINE
  5
B3
330
1F
100
AcDbEntity
  8
0
  6
Continuous
 62
     1
370
    25
100
AcDbLine
 10
167.5804562858
 20
272.0110722056
 30
0.0
 11
104.5804552725
 21
272.0110722056
 31
0.0
  0
ARC
  5
B4
330
1F
100
AcDbEntity
  8
0
  6
Continuous
 62
     7
370
    25
100
AcDbCircle
 10
378.0360015741
 20
58.3813202377
 30
0.0
 40
2.000000000000035
100
AcDbArc
 50
235.4374753511
 51
270.0
  0
ARC
  5
B5
330
1F
100
AcDbEntity
  8
0
  6
Continuous
 62
     7
370
    25
100
AcDbCircle
 10
378.0360015741
 20
179.3813202377
 30
0.0
 40
2.000000000000028
100
AcDbArc
 50
90.0
 51
124.5625246489
  0
LINE
  5
B6
330
1F
100
AcDbEntity
  8
0
  6
Continuous
 62
     7
370
    25
100
AcDbLine
 10
378.0360016815
 20
56.3813202377
 30
0.0
 11
464.4137862913
 21
56.3813202377
 31
0.0
  0
LINE
  5
B7
330
1F
100
AcDbEntity
  8
0
  6
Continuous
 62
     7
370
    25
100
AcDbLine
 10
464.4137862913
 20
181.3813202377
 30
0.0
 11
378.0360016815
 21
181.3813202377
 31
0.0
  0
LINE
  5
B8
330
1F
100
AcDbEntity
  8
0
  6
Continuous
 62
     7
370
    25
100
AcDbLine
 10
376.9013918779
 20
181.0283340808
 30
0.0
 11
332.9261857859
 21
150.734303176
 31
0.0
  0
LINE
  5
B9
330
1F
100
AcDbEntity
  8
0
  6
Continuous
 62
     7
370
    25
100
AcDbLine
 10
332.9261857859
 20
87.0283372994
 30
0.0
 11
376.9013918779
 21
56.7343063947
 31
0.0
  0
ARC
  5
BA
330
1F
100
AcDbEntity
  8
0
  6
Continuous
 62
     7
370
    25
100
AcDbCircle
 10
331.7915752039
 20
85.3813202377
 30
0.0
 40
2.000000000000006
100
AcDbArc
 50
55.4374753511
 51
90.0
  0
ARC
  5
BB
330
1F
100
AcDbEntity
  8
0
  6
Continuous
 62
     7
370
    25
100
AcDbCircle
 10
331.7915752039
 20
152.3813202377
 30
0.0
 40
2.000000000000017
100
AcDbArc
 50
270.0
 51
304.5625246489
  0
LINE
  5
BC
330
1F
100
AcDbEntity
  8
0
  6
Continuous
 62
     7
370
    25
100
AcDbLine
 10
269.4137859933
 20
87.3813197311
 30
0.0
 11
331.7915759824
 21
87.3813197311
 31
0.0
  0
LINE
  5
BD
330
1F
100
AcDbEntity
  8
0
  6
Continuous
 62
     7
370
    25
100
AcDbLine
 10
331.7915759824
 20
150.3813207444
 30
0.0
 11
269.4137859933
 21
150.3813207444
 31
0.0
  0
LINE
  5
BE
330
1F
100
AcDbEntity
  8
0
  6
Continuous
 62
     7
370
    25
100
AcDbLine
 10
464.4137862913
 20
118.8813202377
 30
0.0
 11
464.4137862913
 21
181.3813202377
 31
0.0
  0
LINE
  5
BF
330
1F
100
AcDbEntity
  8
0
  6
Continuous
 62
     7
370
    25
100
AcDbLine
 10
464.4137862913
 20
56.3813202377
 30
0.0
 11
464.4137862913
 21
118.8813202377
 31
0.0
  0
LINE
  5
C0
330
1F
100
AcDbEntity
  8
0
  6
Continuous
 62
     7
370
    25
100
AcDbLine
 10
269.4137859933
 20
118.8813202377
 30
0.0
 11
269.4137859933
 21
150.3813207444
 31
0.0
  0
LINE
  5
C1
330
1F
100
AcDbEntity
  8
0
  6
Continuous
 62
     7
370
    25
100
AcDbLine
 10
269.4137859933
 20
87.3813197311
 30
0.0
 11
269.4137859933
 21
118.8813202377
 31
0.0
  0
LINE
  5
C2
330
1F
100
AcDbEntity
  8
0
  6
Continuous
 62
     1
370
    25
100
AcDbLine
 10
376.9013918779
 20
118.8813202377
 30
0.0
 11
376.9013918779
 21
181.0283340808
 31
0.0
  0
LINE
  5
C3
330
1F
100
AcDbEntity
  8
0
  6
Continuous
 62
     1
370
    25
100
AcDbLine
 10
376.9013918779
 20
56.7343063947
 30
0.0
 11
376.9013918779
 21
118.8813202377
 31
0.0
  0
LINE
  5
C4
330
1F
100
AcDbEntity
  8
0
  6
Continuous
 62
     1
370
    25
100
AcDbLine
 10
378.0360016815
 20
118.8813202377
 30
0.0
 11
378.0360016815
 21
181.3813202377
 31
0.0
  0
LINE
  5
C5
330
1F
100
AcDbEntity
  8
0
  6
Continuous
 62
     1
370
    25
100
AcDbLine
 10
378.0360016815
 20
56.3813202377
 30
0.0
 11
378.0360016815
 21
118.8813202377
 31
0.0
  0
LINE
  5
C6
330
1F
100
AcDbEntity
  8
0
  6
Continuous
 62
     1
370
    25
100
AcDbLine
 10
332.9261857859
 20
118.8813202377
 30
0.0
 11
332.9261857859
 21
150.734303176
 31
0.0
  0
LINE
  5
C7
330
1F
100
AcDbEntity
  8
0
  6
Continuous
 62
     1
370
    25
100
AcDbLine
 10
332.9261857859
 20
87.0283372994
 30
0.0
 11
332.9261857859
 21
118.8813202377
 31
0.0
  0
LINE
  5
C8
330
1F
100
AcDbEntity
  8
0
  6
Continuous
 62
     1
370
    25
100
AcDbLine
 10
331.7915759824
 20
118.8813202377
 30
0.0
 11
331.7915759824
 21
150.3813207444
 31
0.0
  0
LINE
  5
C9
330
1F
100
AcDbEntity
  8
0
  6
Continuous
 62
     1
370
    25
100
AcDbLine
 10
331.7915759824
 20
87.3813197311
 30
0.0
 11
331.7915759824
 21
118.8813202377
 31
0.0
  0
ARC
  5
CA
330
1F
100
AcDbEntity
  8
0
  6
Continuous
 62
     7
370
    25
100
AcDbCircle
 10
75.5804557792
 20
-95.464512453
 30
0.0
 40
2.000000000000014
100
AcDbArc
 50
145.4374753511
 51
180.0
  0
ARC
  5
CB
330
1F
100
AcDbEntity
  8
0
  6
Continuous
 62
     7
370
    25
100
AcDbCircle
 10
196.5804557792
 20
-95.464512453
 30
0.0
 40
2.000000000000028
100
AcDbArc
 50
0.0
 51
34.5625246489
  0
LINE
  5
CC
330
1F
100
AcDbEntity
  8
0
  6
Continuous
 62
     7
370
    25
100
AcDbLine
 10
73.5804557792
 20
-95.4645125604
 30
0.0
 11
73.5804557792
 21
-181.8422971701
 31
0.0
  0
LINE
  5
CD
330
1F
100
AcDbEntity
  8
0
  6
Continuous
 62
     7
370
    25
100
AcDbLine
 10
198.5804557792
 20
-181.8422971701
 30
0.0
 11
198.5804557792
 21
-95.4645125604
 31
0.0
  0
LINE
  5
CE
330
1F
100
AcDbEntity
  8
0
  6
Continuous
 62
     7
370
    25
100
AcDbLine
 10
198.2274696222
 20
-94.3299027568
 30
0.0
 11
167.9334387175
 21
-50.3546966648
 31
0.0
  0
LINE
  5
CF
330
1F
100
AcDbEntity
  8
0
  6
Continuous
 62
     7
370
    25
100
AcDbLine
 10
104.2274728409
 20
-50.3546966648
 30
0.0
 11
73.9334419361
 21
-94.3299027568
 31
0.0
  0
ARC
  5
D0
330
1F
100
AcDbEntity
  8
0
  6
Continuous
 62
     7
370
    25
100
AcDbCircle
 10
102.5804557792
 20
-49.2200860827
 30
0.0
 40
2.0
100
AcDbArc
 50
325.4374753511
 51
0.0
  0
ARC
  5
D1
330
1F
100
AcDbEntity
  8
0
  6
Continuous
 62
     7
370
    25
100
AcDbCircle
 10
169.5804557792
 20
-49.2200860827
 30
0.0
 40
2.000000000000001
100
AcDbArc
 50
180.0
 51
214.5625246489
  0
LINE
  5
D2
330
1F
100
AcDbEntity
  8
0
  6
Continuous
 62
     7
370
    25
100
AcDbLine
 10
104.5804552725
 20
13.1577031279
 30
0.0
 11
104.5804552725
 21
-49.2200868612
 31
0.0
  0
LINE
  5
D3
330
1F
100
AcDbEntity
  8
0
  6
Continuous
 62
     7
370
    25
100
AcDbLine
 10
167.5804562858
 20
-49.2200868612
 30
0.0
 11
167.5804562858
 21
13.1577031279
 31
0.0
  0
LINE
  5
D4
330
1F
100
AcDbEntity
  8
0
  6
Continuous
 62
     7
370
    25
100
AcDbLine
 10
73.5804557792
 20
-181.8422971701
 30
0.0
 11
198.5804557792
 21
-181.8422971701
 31
0.0
  0
LINE
  5
D5
330
1F
100
AcDbEntity
  8
0
  6
Continuous
 62
     7
370
    25
100
AcDbLine
 10
104.5804552725
 20
13.1577031279
 30
0.0
 11
167.5804562858
 21
13.1577031279
 31
0.0
  0
LINE
  5
D6
330
1F
100
AcDbEntity
  8
0
  6
Continuous
 62
     1
370
    25
100
AcDbLine
 10
73.9334419361
 20
-94.3299027568
 30
0.0
 11
198.2274696222
 21
-94.3299027568
 31
0.0
  0
LINE
  5
D7
330
1F
100
AcDbEntity
  8
0
  6
Continuous
 62
     1
370
    25
100
AcDbLine
 10
73.5804557792
 20
-95.4645125604
 30
0.0
 11
198.5804557792
 21
-95.4645125604
 31
0.0
  0
LINE
  5
D8
330
1F
100
AcDbEntity
  8
0
  6
Continuous
 62
     1
370
    25
100
AcDbLine
 10
104.2274728409
 20
-50.3546966648
 30
0.0
 11
167.9334387175
 21
-50.3546966648
 31
0.0
  0
LINE
  5
D9
330
1F
100
AcDbEntity
  8
0
  6
Continuous
 62
     1
370
    25
100
AcDbLine
 10
104.5804552725
 20
-49.2200868612
 30
0.0
 11
167.5804562858
 21
-49.2200868612
 31
0.0
  0
LINE
  5
DA
330
1F
100
AcDbEntity
  8
0
  6
Continuous
 62
     7
370
    25
100
AcDbLine
 10
374.1078350425
 20
-25.6572662484
 30
0.0
 11
313.029517801
 21
9.60249577
 31
0.0
  0
LINE
  5
DB
330
1F
100
AcDbEntity
  8
0
  6
Continuous
 62
     7
370
    25
100
AcDbLine
 10
250.5345975659
 20
-98.6536103541
 30
0.0
 11
311.6129148073
 21
-133.9133723725
 31
0.0
  0
SPLINE
  5
DC
330
1F
100
AcDbEntity
  8
0
  6
Continuous
 62
     7
370
    25
100
AcDbSpline
210
0.0
220
0.0
230
1.0
 70
     8
 71
     3
 72
    16
 73
    12
 74
     0
 42
0.000000001
 43
0.00000001
 40
0.0
 40
0.0
 40
0.0
 40
0.0
 40
0.0060640916020182
 40
0.1455921642975289
 40
0.2847032282745306
 40
0.4233134283021469
 40
0.561358654363783
 40
0.6988081827380914
 40
0.8356755081650135
 40
0.9720252772397956
 40
1.0
 40
1.0
 40
1.0
 40
1.0
 10
384.7234131433707
 20
-38.45644946089168
 30
0.0
 10
384.7122913785805
 20
-38.42626505792335
 30
0.0
 10
384.4452700482836
 20
-37.70157076822544
 30
0.0
 10
383.8171182304625
 20
-36.37952059045532
 30
0.0
 10
382.8330188896106
 20
-34.50743913179965
 30
0.0
 10
381.7291531356262
 20
-32.76752706447416
 30
0.0
 10
380.5253008739697
 20
-31.15116000917174
 30
0.0
 10
379.2238629060895
 20
-29.6626127003629
 30
0.0
 10
377.8208275054578
 20
-28.31980934776576
 30
0.0
 10
376.7428367991821
 20
-27.39939431091678
 30
0.0
 10
376.1074322239789
 20
-26.97050024757572
 30
0.0
 10
375.9992604801727
 20
-26.89748500571203
 30
0.0
  0
SPLINE
  5
DD
330
1F
100
AcDbEntity
  8
0
  6
Continuous
 62
     7
370
    25
100
AcDbSpline
210
0.0
220
0.0
230
1.0
 70
     8
 71
     3
 72
    15
 73
    11
 74
     0
 42
0.000000001
 43
0.00000001
 40
0.0
 40
0.0
 40
0.0
 40
0.0
 40
0.113605770848114
 40
0.2506129574758165
 40
0.3879314111355522
 40
0.5256954200338998
 40
0.6639928996574018
 40
0.802862194305228
 40
0.9422952978873878
 40
0.9999999999999999
 40
0.9999999999999999
 40
0.9999999999999999
 40
0.9999999999999999
 10
313.693814036719
 20
-134.9604339551304
 30
0.0
 10
314.1772411296067
 20
-135.1688990324708
 30
0.0
 10
315.24367545392
 20
-135.6287704736192
 30
0.0
 10
316.978473372631
 20
-136.1653348643222
 30
0.0
 10
318.8757731971783
 20
-136.6030781021526
 30
0.0
 10
320.8375385959164
 20
-136.8883850663495
 30
0.0
 10
322.8561271563492
 20
-137.0284277232154
 30
0.0
 10
324.9299696100455
 20
-137.0094624991563
 30
0.0
 10
326.6286284855382
 20
-136.9007588174882
 30
0.0
 10
327.6457609482583
 20
-136.7452682494726
 30
0.0
 10
327.9434883454131
 20
-136.6997542148762
 30
0.0
  0
LINE
  5
DE
330
1F
100
AcDbEntity
  8
0
  6
Continuous
 62
     7
370
    25
100
AcDbLine
 10
331.6668634321
 20
-135.9918052555
 30
0.0
 11
368.6094737481
 21
-126.7701548175
 31
0.0
  0
LINE
  5
DF
330
1F
100
AcDbEntity
  8
0
  6
Continuous
 62
     7
370
    25
100
AcDbLine
 10
396.424873186
 20
-78.5872493219
 30
0.0
 11
385.936317784
 21
-41.9841691759
 31
0.0
  0
LINE
  5
E0
330
1F
100
AcDbEntity
  8
0
  6
Continuous
 62
     7
370
    25
100
AcDbLine
 10
435.4166007149
 20
-96.844809196
 30
0.0
 11
394.9650117207
 21
-73.4926039354
 31
0.0
  0
LINE
  5
E1
330
1F
100
AcDbEntity
  8
0
  6
Continuous
 62
     7
370
    25
100
AcDbLine
 10
363.4675707421
 20
-128.0536821762
 30
0.0
 11
403.9191597363
 21
-151.4058874369
 31
0.0
  0
LWPOLYLINE
  5
E2
330
1F
100
AcDbEntity
  8
0
  6
Continuous
 62
     7
370
    25
100
AcDbPolyline
 90
        3
 70
   128
 43
0.0
 10
374.1078350425
 20
-25.6572662484
 10
374.3194438321
 20
-25.781089463
 10
375.8927962237
 20
-26.8127624215
  0
LWPOLYLINE
  5
E3
330
1F
100
AcDbEntity
  8
0
  6
Continuous
 62
     7
370
    25
100
AcDbPolyline
 90
        3
 70
   128
 43
0.0
 10
313.5643744795
 20
-134.9072781997
 10
312.2459947163
 20
-134.2643260845
 10
311.6129148073
 20
-133.9133723725
  0
LWPOLYLINE
  5
E4
330
1F
100
AcDbEntity
  8
0
  6
Continuous
 62
     7
370
    25
100
AcDbPolyline
 90
      118
 70
   128
 43
0.0
 10
237.5878838593
 20
-70.0383107865
 10
237.6515967233
 20
-67.2622076266
 10
237.8425456547
 20
-64.4205508161
 10
238.1601880127
 20
-61.5215291586
 10
238.6035992008
 20
-58.5735063283
 10
239.1715069111
 20
-55.5849784776
 10
239.8622726847
 20
-52.5645622577
 10
240.6739050832
 20
-49.5209678236
 10
241.6040596881
 20
-46.4629722181
 10
242.6500601744
 20
-43.3993889551
 10
243.8088877742
 20
-40.3390543299
 10
245.0772023497
 20
-37.2907878778
 10
246.4513450277
 20
-34.2633817275
 10
247.9273566385
 20
-31.2655641004
 10
249.5009803505
 20
-28.3059795394
 10
251.1676774748
 20
-25.3931615331
 10
252.9226432709
 20
-22.5355051409
 10
254.7608201168
 20
-19.7412533061
 10
256.6769054121
 20
-17.018458833
 10
258.6653752856
 20
-14.3749767852
 10
260.7204964488
 20
-11.8184241812
 10
262.8363446352
 20
-9.3561754345
 10
265.0068164543
 20
-6.9953311747
 10
267.2256570505
 20
-4.7426931555
 10
269.4864666882
 20
-2.6047604527
 10
271.7827277524
 20
-0.5876986682
 10
274.1078198951
 20
1.3026809817
 10
276.4550388041
 20
3.060926417
 10
278.8176166173
 20
4.6819686469
 10
281.188741762
 20
6.1611301804
 10
283.5615776407
 20
7.4941510231
 10
285.9292825522
 20
8.6771819262
 10
288.2850299418
 20
9.7068204111
 10
290.6220279107
 20
10.5800885722
 10
292.9335382315
 20
11.2944775141
 10
295.2128951167
 20
11.8479186429
 10
297.4535282678
 20
12.2388213064
 10
299.648976046
 20
12.466059105
 10
301.7929085215
 20
12.5289740717
 10
303.8791445955
 20
12.4273865569
 10
305.9016691226
 20
12.1615899031
 10
307.8546513497
 20
11.7323489227
 10
309.732459404
 20
11.1409021777
 10
311.5296774157
 20
10.3889536133
 10
313.2411265907
 20
9.4786725554
 10
314.8618731134
 20
8.412683064
 10
316.3872386839
 20
7.1940578483
 10
317.812829493
 20
5.8263137008
 10
319.134536223
 20
4.3133932469
 10
320.3485445842
 20
2.6596542967
 10
321.451353754
 20
0.869868323
 10
322.4397895478
 20
-1.0508023544
 10
323.3109965167
 20
-3.0968228185
 10
324.0624642889
 20
-5.2622946835
 10
324.6920302044
 20
-7.5409697836
 10
325.1978714118
 20
-9.9262828714
 10
325.5785364792
 20
-12.411353903
 10
325.8329243201
 20
-14.9890184542
 10
325.9602999989
 20
-17.6518457831
 10
325.9602999989
 20
-20.3921559406
 10
325.8329243201
 20
-23.2020480978
 10
325.5785364792
 20
-26.0734225983
 10
325.1978714118
 20
-28.9980001616
 10
324.6920302044
 20
-31.9673450761
 10
324.0624642889
 20
-34.97290151
 10
323.3109965167
 20
-38.0059995969
 10
322.4397895478
 20
-41.0578942166
 10
321.451353754
 20
-44.1197885699
 10
320.3485445842
 20
-47.1828509086
 10
319.134536223
 20
-50.2382540774
 10
317.812829493
 20
-53.2771846398
 10
316.3872386839
 20
-56.2908809004
 10
314.8618731134
 20
-59.2706557166
 10
313.2411265907
 20
-62.207919312
 10
311.5296774157
 20
-65.0941975269
 10
309.732459404
 20
-67.9211698396
 10
307.8546513497
 20
-70.6806876154
 10
305.9016691226
 20
-73.364793879
 10
303.8791445955
 20
-75.9657476466
 10
301.7929085215
 20
-78.4760520616
 10
299.648976046
 20
-80.8884688421
 10
297.4535282678
 20
-83.1960410933
 10
295.2128951167
 20
-85.3921184006
 10
292.9335382315
 20
-87.4703667143
 10
290.6220279107
 20
-89.4247907815
 10
288.2850299418
 20
-91.2497630417
 10
285.9292825522
 20
-92.9400125983
 10
283.5615776407
 20
-94.4906755978
 10
281.188741762
 20
-95.8972727462
 10
278.8176166173
 20
-97.1557540324
 10
276.4550388041
 20
-98.2624860834
 10
274.1078198951
 20
-99.2142819155
 10
271.7827277524
 20
-100.0083965125
 10
269.4864666882
 20
-100.6425413202
 10
267.2256570505
 20
-101.1148838638
 10
265.0068164543
 20
-101.4240646671
 10
262.8363446352
 20
-101.5691938286
 10
260.7204964488
 20
-101.5498513992
 10
258.6653752856
 20
-101.3660911839
 10
256.6769054121
 20
-101.0184475837
 10
254.7608201168
 20
-100.5079181033
 10
252.9226432709
 20
-99.83598008
 10
251.1676774748
 20
-99.0045640662
 10
249.5009803505
 20
-98.0160735992
 10
247.9273566385
 20
-96.8733563029
 10
246.4513450277
 20
-95.5797054075
 10
245.0772023497
 20
-94.1388506224
 10
243.8088877742
 20
-92.5549490093
 10
242.6500601744
 20
-90.8325682518
 10
241.6040596881
 20
-88.9766714439
 10
240.6739050832
 20
-86.9926094858
 10
239.8622726847
 20
-84.8861058725
 10
239.1715069111
 20
-82.6632308387
 10
238.6035992008
 20
-80.3303952735
 10
238.1601880127
 20
-77.8943241038
 10
237.8425456547
 20
-75.3620445065
 10
237.6515967233
 20
-72.7408526394
 10
237.5878838593
 20
-70.0383107865
  0
LWPOLYLINE
  5
E5
330
1F
100
AcDbEntity
  8
0
  6
Continuous
 62
     7
370
    25
100
AcDbPolyline
 90
      111
 70
   128
 43
0.0
 10
242.8204730538
 20
-67.0176013421
 10
242.8840173305
 20
-64.4124125814
 10
243.0744367921
 20
-61.7423583552
 10
243.3911124067
 20
-59.0161464757
 10
243.8330115766
 20
-56.2426687487
 10
244.3986907723
 20
-53.4309741668
 10
245.0863087032
 20
-50.5902306979
 10
245.8936210497
 20
-47.7297036112
 10
246.8179936338
 20
-44.8587265811
 10
247.8564103216
 20
-41.9866651855
 10
249.0054888285
 20
-39.1228804054
 10
250.2614754508
 20
-36.27672254
 10
251.6202740418
 20
-33.4574673316
 10
253.077456548
 20
-30.6743174864
 10
254.628265644
 20
-27.9363433594
 10
256.2676463422
 20
-25.2524829572
 10
257.9902486269
 20
-22.6314856637
 10
259.7904564307
 20
-20.0819046386
 10
261.6623942193
 20
-17.6120504294
 10
263.5999599194
 20
-15.2299841309
 10
265.5968315037
 20
-12.9434740385
 10
267.64649465
 20
-10.7599766402
 10
269.7422664485
 20
-8.6866168461
 10
271.8773085732
 20
-6.7301560507
 10
274.0446588914
 20
-4.8969769262
 10
276.2372459522
 20
-3.1930568078
 10
278.447919938
 20
-1.6239559095
 10
280.6694687161
 20
-0.1947898064
 10
282.8946466508
 20
1.0897780725
 10
285.1161954289
 20
2.2255575922
 10
287.3268694147
 20
3.2088465487
 10
289.5194564755
 20
4.0364335661
 10
291.6868067937
 20
4.7056238546
 10
293.8218489183
 20
5.2142302258
 10
295.9176207169
 20
5.5605970451
 10
297.9672838632
 20
5.7435903433
 10
299.9641554475
 20
5.7626191074
 10
301.9017211476
 20
5.6176185489
 10
303.7736589362
 20
5.3090577061
 10
305.57386674
 20
4.8379523696
 10
307.2964690247
 20
4.2058293397
 10
308.9358497229
 20
3.4147576024
 10
310.4866588189
 20
2.4673095453
 10
311.9438413251
 20
1.3665868103
 10
313.3026399161
 20
0.1161670613
 10
314.5586265384
 20
-1.2798595168
 10
315.7077050453
 20
-2.8169464924
 10
316.7461217331
 20
-4.4900775002
 10
317.6704943172
 20
-6.293796662
 10
318.4778066637
 20
-8.2222207537
 10
319.1654245946
 20
-10.2690574584
 10
319.7311037903
 20
-12.4276327431
 10
320.1730029602
 20
-14.6909045485
 10
320.4896785748
 20
-17.0514905459
 10
320.6800980364
 20
-19.5016911415
 10
320.7436423131
 20
-22.033513242
 10
320.6800980364
 20
-24.6387020027
 10
320.4896785748
 20
-27.308756229
 10
320.1730029602
 20
-30.0349681084
 10
319.7311037903
 20
-32.8084458354
 10
319.1654245946
 20
-35.6201404173
 10
318.4778066637
 20
-38.4608838863
 10
317.6704943172
 20
-41.321410973
 10
316.7461217331
 20
-44.1923880031
 10
315.7077050453
 20
-47.0644493986
 10
314.5586265384
 20
-49.9282341788
 10
313.3026399161
 20
-52.7743920441
 10
311.9438413251
 20
-55.5936472526
 10
310.4866588189
 20
-58.3767970978
 10
308.9358497229
 20
-61.1147712248
 10
307.2964690247
 20
-63.798631627
 10
305.57386674
 20
-66.4196289205
 10
303.7736589362
 20
-68.9692099456
 10
301.9017211476
 20
-71.4390641547
 10
299.9641554475
 20
-73.8211304533
 10
297.9672838632
 20
-76.1076405457
 10
295.9176207169
 20
-78.291137944
 10
293.8218489183
 20
-80.364497738
 10
291.6868067937
 20
-82.3209585334
 10
289.5194564755
 20
-84.154137658
 10
287.3268694147
 20
-85.8580577764
 10
285.1161954289
 20
-87.4271586746
 10
282.8946466508
 20
-88.8563247778
 10
280.6694687161
 20
-90.1408926566
 10
278.447919938
 20
-91.2766721764
 10
276.2372459522
 20
-92.2599611329
 10
274.0446588914
 20
-93.0875481503
 10
271.8773085732
 20
-93.7567384387
 10
269.7422664485
 20
-94.26534481
 10
267.64649465
 20
-94.6117116292
 10
265.5968315037
 20
-94.7947049274
 10
263.5999599194
 20
-94.8137336915
 10
261.6623942193
 20
-94.668733133
 10
259.7904564307
 20
-94.3601722902
 10
257.9902486269
 20
-93.8890669537
 10
256.2676463422
 20
-93.2569439238
 10
254.628265644
 20
-92.4658721865
 10
253.077456548
 20
-91.5184241294
 10
251.6202740418
 20
-90.4177013945
 10
250.2614754508
 20
-89.1672816455
 10
249.0054888285
 20
-87.7712550674
 10
247.8564103216
 20
-86.2341680917
 10
246.8179936338
 20
-84.5610370839
 10
245.8936210497
 20
-82.7573179222
 10
245.0863087032
 20
-80.8288938304
 10
244.3986907723
 20
-78.7820571257
 10
243.8330115766
 20
-76.6234818411
 10
243.3911124067
 20
-74.3602100356
 10
243.0744367921
 20
-71.9996240383
 10
242.8840173305
 20
-69.5494234427
 10
242.8204730538
 20
-67.0176013421
  0
ARC
  5
E6
330
1F
100
AcDbEntity
  8
0
  6
Continuous
 62
     7
370
    25
100
AcDbCircle
 10
348.4236316673
 20
-52.8542976407
 30
0.0
 40
39.04895744319378
100
AcDbArc
 50
7.4631931215
 51
21.4662142531
  0
ARC
  5
E7
330
1F
100
AcDbEntity
  8
0
  6
Continuous
 62
     7
370
    25
100
AcDbCircle
 10
322.4353394468
 20
-98.4679837985
 30
0.0
 40
38.63856312560271
100
AcDbArc
 50
278.3634490551
 51
292.7018952759
  0
LWPOLYLINE
  5
E8
330
1F
100
AcDbEntity
  8
0
  6
Continuous
 62
     7
370
    25
100
AcDbPolyline
 90
       43
 70
   128
 43
0.0
 10
435.4166007149
 20
-96.844809196
 10
436.4258333442
 20
-97.5073857059
 10
437.4875374829
 20
-98.4065296542
 10
438.4471724912
 20
-99.4529885009
 10
439.2992408396
 20
-100.6407700431
 10
440.0388627132
 20
-101.9630684405
 10
440.6618023538
 20
-103.4123098456
 10
441.1644891331
 20
-104.9801942315
 10
441.5440465286
 20
-106.6577398813
 10
441.7983000265
 20
-108.4353381422
 10
441.9257889748
 20
-110.302809131
 10
441.9257889748
 20
-112.2494530666
 10
441.7983000265
 20
-114.2641196619
 10
441.5440465286
 20
-116.335272763
 10
441.1644891331
 20
-118.4510460537
 10
440.6618023538
 20
-120.599320241
 10
440.0388627132
 20
-122.767792446
 10
439.2992408396
 20
-124.9440400818
 10
438.4471724912
 20
-127.1155987987
 10
437.4875374829
 20
-129.2700286422
 10
436.4258333442
 20
-131.3949900967
 10
435.2681410752
 20
-133.4783125243
 10
434.0210922189
 20
-135.5080626031
 10
432.6918293491
 20
-137.4726127653
 10
431.2879652405
 20
-139.3607119161
 10
429.817544014
 20
-141.1615428456
 10
428.2889858198
 20
-142.8647921857
 10
426.7110466657
 20
-144.460704019
 10
425.092765075
 20
-145.9401365286
 10
423.4434100617
 20
-147.2946163661
 10
421.7724291053
 20
-148.5163838939
 10
420.0893936563
 20
-149.5984444172
 10
418.4039437362
 20
-150.5345940811
 10
416.7257335252
 20
-151.3194756175
 10
415.0643758797
 20
-151.9485906022
 10
413.429386027
 20
-152.4183380431
 10
411.8301304457
 20
-152.7260256397
 10
410.2757685021
 20
-152.8698897875
 10
408.7752037178
 20
-152.849108501
 10
407.3370307574
 20
-152.6638000783
 10
405.9694893296
 20
-152.3150253778
 10
404.6804095286
 20
-151.8047843911
 10
403.9191597363
 20
-151.4058874369
  0
LWPOLYLINE
  5
E9
330
1F
100
AcDbEntity
  8
0
  6
Continuous
 62
     1
370
    25
100
AcDbPolyline
 90
       59
 70
   128
 43
0.0
 10
375.8927962237
 20
-26.8127624215
 10
375.9401903549
 20
-26.8470789543
 10
377.4655559253
 20
-28.0657041701
 10
378.8911467344
 20
-29.4334483175
 10
380.2128534645
 20
-30.9463687715
 10
381.4268618257
 20
-32.6001077217
 10
382.5296709955
 20
-34.3898936954
 10
383.5181067893
 20
-36.3105643727
 10
384.3893137581
 20
-38.3565848368
 10
385.1407815304
 20
-40.5220567019
 10
385.7703474458
 20
-42.8007318019
 10
386.2761886533
 20
-45.1860448898
 10
386.6568537207
 20
-47.6711159214
 10
386.9112415616
 20
-50.2487804726
 10
387.0386172403
 20
-52.9116078014
 10
387.0386172403
 20
-55.651917959
 10
386.9112415616
 20
-58.4618101161
 10
386.6568537207
 20
-61.3331846166
 10
386.2761886533
 20
-64.2577621799
 10
385.7703474458
 20
-67.2271070944
 10
385.1407815304
 20
-70.2326635283
 10
384.3893137581
 20
-73.2657616153
 10
383.5181067893
 20
-76.317656235
 10
382.5296709955
 20
-79.3795505882
 10
381.4268618257
 20
-82.4426129269
 10
380.2128534645
 20
-85.4980160957
 10
378.8911467344
 20
-88.5369466582
 10
377.4655559253
 20
-91.5506429187
 10
375.9401903549
 20
-94.530417735
 10
374.3194438321
 20
-97.4676813303
 10
372.6079946572
 20
-100.3539595453
 10
370.8107766455
 20
-103.1809318579
 10
368.9329685911
 20
-105.9404496338
 10
366.9799863641
 20
-108.6245558974
 10
364.957461837
 20
-111.2255096649
 10
362.8712257629
 20
-113.7358140799
 10
360.7272932874
 20
-116.1482308605
 10
358.5318455092
 20
-118.4558031117
 10
356.2912123582
 20
-120.6518804189
 10
354.011855473
 20
-122.7301287327
 10
351.7003451522
 20
-124.6845527999
 10
349.3633471833
 20
-126.50952506
 10
347.0075997937
 20
-128.1997746167
 10
344.6398948822
 20
-129.7504376161
 10
342.2670590035
 20
-131.1570347645
 10
339.8959338588
 20
-132.4155160507
 10
337.5333560455
 20
-133.5222481017
 10
335.1861371366
 20
-134.4740439339
 10
332.8610449939
 20
-135.2681585309
 10
330.5647839297
 20
-135.9023033385
 10
328.303974292
 20
-136.3746458822
 10
326.0851336958
 20
-136.6838266855
 10
323.9146618766
 20
-136.828955847
 10
321.7988136902
 20
-136.8096134175
 10
319.7436925271
 20
-136.6258532023
 10
317.7552226536
 20
-136.278209602
 10
315.8391373582
 20
-135.7676801216
 10
314.0009605123
 20
-135.0957420983
 10
313.5643744795
 20
-134.9072781997
  0
LWPOLYLINE
  5
EA
330
1F
100
AcDbEntity
  8
0
  6
Continuous
 62
     1
370
    25
100
AcDbPolyline
 90
       36
 70
   128
 43
0.0
 10
387.14178614
 20
-47.7822574567
 10
387.3496359576
 20
-49.5419584321
 10
387.5427923302
 20
-52.1697034151
 10
387.6072401299
 20
-54.8798085206
 10
387.5427923302
 20
-57.6643234718
 10
387.3496359576
 20
-60.5150820556
 10
387.0283373606
 20
-63.4237220849
 10
386.5798422088
 20
-66.3817110647
 10
386.005459689
 20
-69.3803760387
 10
385.3068809433
 20
-72.4109178494
 10
384.486152728
 20
-75.4644476381
 10
383.545682682
 20
-78.5320088988
 10
382.4882261554
 20
-81.604607135
 10
381.3168914783
 20
-84.6732265902
 10
380.0351083505
 20
-87.7288667476
 10
378.6466383782
 20
-90.7625666654
 10
377.1555540007
 20
-93.765426268
 10
375.5662279535
 20
-96.7286398055
 10
373.8833253659
 20
-99.6435125829
 10
372.1117800533
 20
-102.5014989812
 10
370.2567892491
 20
-105.2942115823
 10
368.3237925307
 20
-108.0134607114
 10
366.3184612837
 20
-110.6512696449
 10
364.2466749932
 20
-113.1999004641
 10
362.1145133422
 20
-115.651882952
 10
359.9282298694
 20
-118.0000176328
 10
357.6942361641
 20
-120.2374213979
 10
355.4190847441
 20
-122.3575313071
 10
353.1094499581
 20
-124.3541308222
 10
350.7721062533
 20
-126.2213562693
 10
348.4139097367
 20
-127.9537379019
 10
346.0417766073
 20
-129.5461910587
 10
343.662665211
 20
-130.9940447738
 10
341.2835538147
 20
-132.2930546082
 10
338.9114206853
 20
-133.4394080655
 10
337.3473735276
 20
-134.1130367509
  0
LWPOLYLINE
  5
EB
330
1F
100
AcDbEntity
  8
0
  6
Continuous
 62
     1
370
    25
100
AcDbPolyline
 90
       30
 70
   128
 43
0.0
 10
396.424873186
 20
-78.5872493219
 10
396.4953295458
 20
-78.8396368364
 10
396.8791398218
 20
-80.5359807674
 10
397.1362408661
 20
-82.3334994309
 10
397.2651601731
 20
-84.2218960211
 10
397.2651601731
 20
-86.1903538348
 10
397.1362408661
 20
-88.2275974886
 10
396.8791398218
 20
-90.3219586993
 10
396.4953295458
 20
-92.4614405425
 10
395.9870082598
 20
-94.6337889353
 10
395.3570893644
 20
-96.8265603166
 10
394.6091790496
 20
-99.0271944592
 10
393.7475618059
 20
-101.2230878531
 10
392.7771740829
 20
-103.4016598635
 10
391.703571362
 20
-105.5504348574
 10
390.5329070832
 20
-107.6571015181
 10
389.2718839125
 20
-109.7095957307
 10
387.927724766
 20
-111.6961614167
 10
386.5081306632
 20
-113.6054174506
 10
385.021231336
 20
-115.4264287586
 10
383.4755443992
 20
-117.1487648704
 10
381.8799226665
 20
-118.7625607515
 10
380.243507065
 20
-120.2585713617
 10
378.5756696708
 20
-121.6282303954
 10
376.8859638245
 20
-122.8636882055
 10
375.184068484
 20
-123.9578713042
 10
373.479731672
 20
-124.9045134887
 10
371.7827155701
 20
-125.6981890595
 10
370.1027408714
 20
-126.3343555906
 10
368.6094737481
 20
-126.7701548175
  0
LWPOLYLINE
  5
EC
330
1F
100
AcDbEntity
  8
0
  6
Continuous
 62
     1
370
    25
100
AcDbPolyline
 90
       35
 70
   128
 43
0.0
 10
395.6952835794
 20
-76.0411184114
 10
395.9311044165
 20
-76.5002015681
 10
396.5540440571
 20
-77.9494429733
 10
397.0567308364
 20
-79.5173273592
 10
397.4362882319
 20
-81.1948730089
 10
397.6905417297
 20
-82.9724712699
 10
397.8180306781
 20
-84.8399422586
 10
397.8180306781
 20
-86.7865861942
 10
397.6905417297
 20
-88.8012527896
 10
397.4362882319
 20
-90.8724058907
 10
397.0567308364
 20
-92.9881791814
 10
396.5540440571
 20
-95.1364533687
 10
395.9311044165
 20
-97.3049255736
 10
395.1914825428
 20
-99.4811732095
 10
394.3394141945
 20
-101.6527319264
 10
393.3797791862
 20
-103.8071617699
 10
392.3180750475
 20
-105.9321232244
 10
391.1603827784
 20
-108.015445652
 10
389.9133339222
 20
-110.0451957308
 10
388.5840710524
 20
-112.0097458929
 10
387.1802069437
 20
-113.8978450438
 10
385.7097857172
 20
-115.6986759733
 10
384.181227523
 20
-117.4019253133
 10
382.6032883689
 20
-118.9978371467
 10
380.9850067782
 20
-120.4772696563
 10
379.335651765
 20
-121.8317494937
 10
377.6646708086
 20
-123.0535170216
 10
375.9816353596
 20
-124.1355775449
 10
374.2961854395
 20
-125.0717272088
 10
372.6179752285
 20
-125.8566087452
 10
370.956617583
 20
-126.4857237299
 10
369.3216277303
 20
-126.9554711708
 10
367.722372149
 20
-127.2631587674
 10
366.1680102054
 20
-127.4070229152
 10
366.0397250767
 20
-127.4116181422
  0
ENDSEC
  0
SECTION
  2
OBJECTS
  0
DICTIONARY
  5
C
330
0
100
AcDbDictionary
281
     1
  3
ACAD_GROUP
350
D
  3
ACAD_LAYOUT
350
1A
  3
ACAD_MLINESTYLE
350
17
  3
ACAD_PLOTSETTINGS
350
19
  3
ACAD_PLOTSTYLENAME
350
E
  3
ACAD_SCALELIST
350
47
  0
DICTIONARY
  5
D
102
{ACAD_REACTORS
330
C
102
}
330
C
100
AcDbDictionary
281
     1
  0
DICTIONARY
  5
1A
102
{ACAD_REACTORS
330
C
102
}
330
C
100
AcDbDictionary
281
     1
  3
Layout1
350
1E
  3
Layout2
350
26
  3
Model
350
22
  0
DICTIONARY
  5
17
102
{ACAD_REACTORS
330
C
102
}
330
C
100
AcDbDictionary
281
     1
  3
Standard
350
18
  0
DICTIONARY
  5
19
102
{ACAD_REACTORS
330
C
102
}
330
C
100
AcDbDictionary
281
     1
  0
ACDBDICTIONARYWDFLT
  5
E
102
{ACAD_REACTORS
330
C
102
}
330
C
100
AcDbDictionary
281
     1
  3
Normal
350
F
100
AcDbDictionaryWithDefault
340
F
  0
DICTIONARY
  5
47
102
{ACAD_REACTORS
330
C
102
}
330
C
100
AcDbDictionary
281
     1
  3
A0
350
48
  3
A1
350
49
  3
A2
350
4A
  3
A3
350
4B
  3
A4
350
4C
  3
A5
350
4D
  3
A6
350
4E
  3
A7
350
4F
  3
A8
350
50
  3
A9
350
51
  3
B0
350
52
  3
B1
350
53
  3
B2
350
54
  3
B3
350
55
  3
B4
350
56
  3
B5
350
57
  3
B6
350
58
  3
B7
350
59
  3
B8
350
5A
  3
B9
350
5B
  3
C0
350
5C
  3
C1
350
5D
  3
C2
350
5E
  3
C3
350
5F
  3
C4
350
60
  3
C5
350
61
  3
C6
350
62
  3
C7
350
63
  3
C8
350
64
  3
C9
350
65
  3
D0
350
66
  3
D1
350
67
  3
D2
350
68
  0
LAYOUT
  5
1E
102
{ACAD_REACTORS
330
1A
102
}
330
1A
100
AcDbPlotSettings
  1

  2
none_device
  4

  6

 40
0.0
 41
0.0
 42
0.0
 43
0.0
 44
0.0
 45
0.0
 46
0.0
 47
0.0
 48
0.0
 49
0.0
140
0.0
141
0.0
142
1.0
143
1.0
 70
   688
 72
     1
 73
     0
 74
     5
  7

 75
    16
147
1.0
148
0.0
149
0.0
100
AcDbLayout
  1
Layout1
 70
     1
 71
     1
 10
0.0
 20
0.0
 11
420.0
 21
297.0
 12
0.0
 22
0.0
 32
0.0
 14
1.0000000000E+20
 24
1.0000000000E+20
 34
1.0000000000E+20
 15
-1.0000000000E+20
 25
-1.0000000000E+20
 35
-1.0000000000E+20
146
0.0
 13
0.0
 23
0.0
 33
0.0
 16
1.0
 26
0.0
 36
0.0
 17
0.0
 27
1.0
 37
0.0
 76
     0
330
1B
  0
LAYOUT
  5
26
102
{ACAD_REACTORS
330
1A
102
}
330
1A
100
AcDbPlotSettings
  1

  2
none_device
  4

  6

 40
0.0
 41
0.0
 42
0.0
 43
0.0
 44
0.0
 45
0.0
 46
0.0
 47
0.0
 48
0.0
 49
0.0
140
0.0
141
0.0
142
1.0
143
1.0
 70
   688
 72
     1
 73
     0
 74
     5
  7

 75
    16
147
1.0
148
0.0
149
0.0
100
AcDbLayout
  1
Layout2
 70
     1
 71
     2
 10
0.0
 20
0.0
 11
0.0
 21
0.0
 12
0.0
 22
0.0
 32
0.0
 14
0.0
 24
0.0
 34
0.0
 15
0.0
 25
0.0
 35
0.0
146
0.0
 13
0.0
 23
0.0
 33
0.0
 16
1.0
 26
0.0
 36
0.0
 17
0.0
 27
1.0
 37
0.0
 76
     0
330
23
  0
LAYOUT
  5
22
102
{ACAD_REACTORS
330
1A
102
}
330
1A
100
AcDbPlotSettings
  1

  2
none_device
  4
Letter_(8.50_x_11.00_Inches)
  6

 40
6.35
 41
6.35
 42
6.35000508
 43
6.35000508
 44
215.9
 45
279.4
 46
0.0
 47
0.0
 48
0.0
 49
0.0
140
0.0
141
0.0
142
1.0
143
1.0
 70
  1712
 72
     1
 73
     0
 74
     0
  7

 75
     0
147
1.0
148
0.0
149
0.0
100
AcDbLayout
  1
Model
 70
     1
 71
     0
 10
0.0
 20
0.0
 11
279.4
 21
215.9
 12
0.0
 22
0.0
 32
0.0
 14
0.0
 24
0.0
 34
0.0
 15
279.4
 25
215.9
 35
0.0
146
0.0
 13
0.0
 23
0.0
 33
0.0
 16
1.0
 26
0.0
 36
0.0
 17
0.0
 27
1.0
 37
0.0
 76
     0
330
1F
331
29
  0
MLINESTYLE
  5
18
102
{ACAD_REACTORS
330
17
102
}
330
17
100
AcDbMlineStyle
  2
Standard
 70
     0
  3

 62
   256
 51
90.0
 52
90.0
 71
     2
 49
0.5
 62
   256
  6
BYLAYER
 49
-0.5
 62
   256
  6
BYLAYER
  0
ACDBPLACEHOLDER
  5
F
102
{ACAD_REACTORS
330
E
102
}
330
E
  0
SCALE
  5
48
102
{ACAD_REACTORS
330
47
102
}
330
47
100
AcDbScale
 70
     0
300
1:1
140
1.0
141
1.0
290
     1
  0
SCALE
  5
49
102
{ACAD_REACTORS
330
47
102
}
330
47
100
AcDbScale
 70
     0
300
1:2
140
1.0
141
2.0
290
     0
  0
SCALE
  5
4A
102
{ACAD_REACTORS
330
47
102
}
330
47
100
AcDbScale
 70
     0
300
1:4
140
1.0
141
4.0
290
     0
  0
SCALE
  5
4B
102
{ACAD_REACTORS
330
47
102
}
330
47
100
AcDbScale
 70
     0
300
1:5
140
1.0
141
5.0
290
     0
  0
SCALE
  5
4C
102
{ACAD_REACTORS
330
47
102
}
330
47
100
AcDbScale
 70
     0
300
1:8
140
1.0
141
8.0
290
     0
  0
SCALE
  5
4D
102
{ACAD_REACTORS
330
47
102
}
330
47
100
AcDbScale
 70
     0
300
1:10
140
1.0
141
10.0
290
     0
  0
SCALE
  5
4E
102
{ACAD_REACTORS
330
47
102
}
330
47
100
AcDbScale
 70
     0
300
1:16
140
1.0
141
16.0
290
     0
  0
SCALE
  5
4F
102
{ACAD_REACTORS
330
47
102
}
330
47
100
AcDbScale
 70
     0
300
1:20
140
1.0
141
20.0
290
     0
  0
SCALE
  5
50
102
{ACAD_REACTORS
330
47
102
}
330
47
100
AcDbScale
 70
     0
300
1:30
140
1.0
141
30.0
290
     0
  0
SCALE
  5
51
102
{ACAD_REACTORS
330
47
102
}
330
47
100
AcDbScale
 70
     0
300
1:40
140
1.0
141
40.0
290
     0
  0
SCALE
  5
52
102
{ACAD_REACTORS
330
47
102
}
330
47
100
AcDbScale
 70
     0
300
1:50
140
1.0
141
50.0
290
     0
  0
SCALE
  5
53
102
{ACAD_REACTORS
330
47
102
}
330
47
100
AcDbScale
 70
     0
300
1:100
140
1.0
141
100.0
290
     0
  0
SCALE
  5
54
102
{ACAD_REACTORS
330
47
102
}
330
47
100
AcDbScale
 70
     0
300
2:1
140
2.0
141
1.0
290
     0
  0
SCALE
  5
55
102
{ACAD_REACTORS
330
47
102
}
330
47
100
AcDbScale
 70
     0
300
4:1
140
4.0
141
1.0
290
     0
  0
SCALE
  5
56
102
{ACAD_REACTORS
330
47
102
}
330
47
100
AcDbScale
 70
     0
300
8:1
140
8.0
141
1.0
290
     0
  0
SCALE
  5
57
102
{ACAD_REACTORS
330
47
102
}
330
47
100
AcDbScale
 70
     0
300
10:1
140
10.0
141
1.0
290
     0
  0
SCALE
  5
58
102
{ACAD_REACTORS
330
47
102
}
330
47
100
AcDbScale
 70
     0
300
100:1
140
100.0
141
1.0
290
     0
  0
SCALE
  5
59
102
{ACAD_REACTORS
330
47
102
}
330
47
100
AcDbScale
 70
     0
300
1/128" = 1'-0"
140
0.0078125
141
12.0
290
     0
  0
SCALE
  5
5A
102
{ACAD_REACTORS
330
47
102
}
330
47
100
AcDbScale
 70
     0
300
1/64" = 1'-0"
140
0.015625
141
12.0
290
     0
  0
SCALE
  5
5B
102
{ACAD_REACTORS
330
47
102
}
330
47
100
AcDbScale
 70
     0
300
1/32" = 1'-0"
140
0.03125
141
12.0
290
     0
  0
SCALE
  5
5C
102
{ACAD_REACTORS
330
47
102
}
330
47
100
AcDbScale
 70
     0
300
1/16" = 1'-0"
140
0.0625
141
12.0
290
     0
  0
SCALE
  5
5D
102
{ACAD_REACTORS
330
47
102
}
330
47
100
AcDbScale
 70
     0
300
3/32" = 1'-0"
140
0.09375
141
12.0
290
     0
  0
SCALE
  5
5E
102
{ACAD_REACTORS
330
47
102
}
330
47
100
AcDbScale
 70
     0
300
1/8" = 1'-0"
140
0.125
141
12.0
290
     0
  0
SCALE
  5
5F
102
{ACAD_REACTORS
330
47
102
}
330
47
100
AcDbScale
 70
     0
300
3/16" = 1'-0"
140
0.1875
141
12.0
290
     0
  0
SCALE
  5
60
102
{ACAD_REACTORS
330
47
102
}
330
47
100
AcDbScale
 70
     0
300
1/4" = 1'-0"
140
0.25
141
12.0
290
     0
  0
SCALE
  5
61
102
{ACAD_REACTORS
330
47
102
}
330
47
100
AcDbScale
 70
     0
300
3/8" = 1'-0"
140
0.375
141
12.0
290
     0
  0
SCALE
  5
62
102
{ACAD_REACTORS
330
47
102
}
330
47
100
AcDbScale
 70
     0
300
1/2" = 1'-0"
140
0.5
141
12.0
290
     0
  0
SCALE
  5
63
102
{ACAD_REACTORS
330
47
102
}
330
47
100
AcDbScale
 70
     0
300
3/4" = 1'-0"
140
0.75
141
12.0
290
     0
  0
SCALE
  5
64
102
{ACAD_REACTORS
330
47
102
}
330
47
100
AcDbScale
 70
     0
300
1" = 1'-0"
140
1.0
141
12.0
290
     0
  0
SCALE
  5
65
102
{ACAD_REACTORS
330
47
102
}
330
47
100
AcDbScale
 70
     0
300
1-1/2" = 1'-0"
140
1.5
141
12.0
290
     0
  0
SCALE
  5
66
102
{ACAD_REACTORS
330
47
102
}
330
47
100
AcDbScale
 70
     0
300
3" = 1'-0"
140
3.0
141
12.0
290
     0
  0
SCALE
  5
67
102
{ACAD_REACTORS
330
47
102
}
330
47
100
AcDbScale
 70
     0
300
6" = 1'-0"
140
6.0
141
12.0
290
     0
  0
SCALE
  5
68
102
{ACAD_REACTORS
330
47
102
}
330
47
100
AcDbScale
 70
     0
300
1'-0" = 1'-0"
140
12.0
141
12.0
290
     0
  0
ENDSEC
  0
EOF
